ISO-10303-21;
HEADER;
/* Generated by software containing ST-Developer
 * from STEP Tools, Inc. (www.steptools.com) 
 */
/* OPTION: using custom schema-name function */

FILE_DESCRIPTION(
/* description */ (''),
/* implementation_level */ '2;1');

FILE_NAME(
/* name */ '\X2\719482AF\X0\.stp',
/* time_stamp */ '2022-07-25T10:36:40+08:00',
/* author */ (''),
/* organization */ (''),
/* preprocessor_version */ 'ST-DEVELOPER v16',
/* originating_system */ 'SIEMENS PLM Software NX 10.0',
/* authorisation */ '');

FILE_SCHEMA (('CONFIG_CONTROL_DESIGN'));
ENDSEC;

DATA;
#10=SHAPE_REPRESENTATION_RELATIONSHIP('None',
'relationship between \X2\719482AF\X0\-None and \X2\719482AF\X0\-None',
#92,#11);
#11=ADVANCED_BREP_SHAPE_REPRESENTATION('\X2\719482AF\X0\-None',(#93),#265);
#12=CC_DESIGN_APPROVAL(#24,(#82));
#13=CC_DESIGN_APPROVAL(#25,(#84));
#14=CC_DESIGN_APPROVAL(#26,(#31));
#15=APPROVAL_PERSON_ORGANIZATION(#69,#24,#18);
#16=APPROVAL_PERSON_ORGANIZATION(#70,#25,#19);
#17=APPROVAL_PERSON_ORGANIZATION(#71,#26,#20);
#18=APPROVAL_ROLE('approver');
#19=APPROVAL_ROLE('approver');
#20=APPROVAL_ROLE('approver');
#21=APPROVAL_DATE_TIME(#39,#24);
#22=APPROVAL_DATE_TIME(#40,#25);
#23=APPROVAL_DATE_TIME(#41,#26);
#24=APPROVAL(#27,' ');
#25=APPROVAL(#28,' ');
#26=APPROVAL(#29,' ');
#27=APPROVAL_STATUS('not_yet_approved');
#28=APPROVAL_STATUS('not_yet_approved');
#29=APPROVAL_STATUS('not_yet_approved');
#30=CC_DESIGN_SECURITY_CLASSIFICATION(#31,(#84));
#31=SECURITY_CLASSIFICATION(' ',' ',#32);
#32=SECURITY_CLASSIFICATION_LEVEL('confidential');
#33=CC_DESIGN_DATE_AND_TIME_ASSIGNMENT(#37,#35,(#82));
#34=CC_DESIGN_DATE_AND_TIME_ASSIGNMENT(#38,#36,(#31));
#35=DATE_TIME_ROLE('creation_date');
#36=DATE_TIME_ROLE('classification_date');
#37=DATE_AND_TIME(#52,#42);
#38=DATE_AND_TIME(#53,#43);
#39=DATE_AND_TIME(#54,#44);
#40=DATE_AND_TIME(#55,#45);
#41=DATE_AND_TIME(#56,#46);
#42=LOCAL_TIME(0,0,0.,#47);
#43=LOCAL_TIME(0,0,0.,#48);
#44=LOCAL_TIME(0,0,0.,#49);
#45=LOCAL_TIME(0,0,0.,#50);
#46=LOCAL_TIME(0,0,0.,#51);
#47=COORDINATED_UNIVERSAL_TIME_OFFSET(0,0,.BEHIND.);
#48=COORDINATED_UNIVERSAL_TIME_OFFSET(0,0,.BEHIND.);
#49=COORDINATED_UNIVERSAL_TIME_OFFSET(0,0,.BEHIND.);
#50=COORDINATED_UNIVERSAL_TIME_OFFSET(0,0,.BEHIND.);
#51=COORDINATED_UNIVERSAL_TIME_OFFSET(0,0,.BEHIND.);
#52=CALENDAR_DATE(0,1,1);
#53=CALENDAR_DATE(0,1,1);
#54=CALENDAR_DATE(0,1,1);
#55=CALENDAR_DATE(0,1,1);
#56=CALENDAR_DATE(0,1,1);
#57=CC_DESIGN_PERSON_AND_ORGANIZATION_ASSIGNMENT(#65,#61,(#82,#84));
#58=CC_DESIGN_PERSON_AND_ORGANIZATION_ASSIGNMENT(#66,#62,(#86));
#59=CC_DESIGN_PERSON_AND_ORGANIZATION_ASSIGNMENT(#67,#63,(#84));
#60=CC_DESIGN_PERSON_AND_ORGANIZATION_ASSIGNMENT(#68,#64,(#31));
#61=PERSON_AND_ORGANIZATION_ROLE('creator');
#62=PERSON_AND_ORGANIZATION_ROLE('design_owner');
#63=PERSON_AND_ORGANIZATION_ROLE('design_supplier');
#64=PERSON_AND_ORGANIZATION_ROLE('classification_officer');
#65=PERSON_AND_ORGANIZATION(#79,#72);
#66=PERSON_AND_ORGANIZATION(#79,#73);
#67=PERSON_AND_ORGANIZATION(#79,#74);
#68=PERSON_AND_ORGANIZATION(#79,#75);
#69=PERSON_AND_ORGANIZATION(#79,#76);
#70=PERSON_AND_ORGANIZATION(#79,#77);
#71=PERSON_AND_ORGANIZATION(#79,#78);
#72=ORGANIZATION(' ',' ',' ');
#73=ORGANIZATION(' ',' ',' ');
#74=ORGANIZATION(' ',' ',' ');
#75=ORGANIZATION(' ',' ',' ');
#76=ORGANIZATION(' ',' ',' ');
#77=ORGANIZATION(' ',' ',' ');
#78=ORGANIZATION(' ',' ',' ');
#79=PERSON(' ',' ',' ',(' '),$,$);
#80=SHAPE_DEFINITION_REPRESENTATION(#81,#92);
#81=PRODUCT_DEFINITION_SHAPE('','',#82);
#82=PRODUCT_DEFINITION(' ','',#84,#83);
#83=DESIGN_CONTEXT('',#91,'design');
#84=PRODUCT_DEFINITION_FORMATION_WITH_SPECIFIED_SOURCE(' ',' ',#86,
 .NOT_KNOWN.);
#85=PRODUCT_RELATED_PRODUCT_CATEGORY('detail','',(#86));
#86=PRODUCT('\X2\719482AF\X0\','\X2\719482AF\X0\',' ',(#89));
#87=PRODUCT_CATEGORY('part',' ');
#88=PRODUCT_CATEGORY(' ','');
#89=MECHANICAL_CONTEXT(' ',#91,'mechanical');
#90=APPLICATION_PROTOCOL_DEFINITION('international standard',
'config_control_design',2010,#91);
#91=APPLICATION_CONTEXT(
'configuration controlled 3D designs of mechanical parts and assemblie
s');
#92=SHAPE_REPRESENTATION('\X2\719482AF\X0\-None',(#185),#265);
#93=MANIFOLD_SOLID_BREP('',#94);
#94=CLOSED_SHELL('',(#103,#104,#105,#106,#107,#108,#109,#110,#111));
#95=TOROIDAL_SURFACE('',#191,4.6,0.5);
#96=TOROIDAL_SURFACE('',#201,4.6,0.5);
#97=PLANE('',#190);
#98=PLANE('',#195);
#99=PLANE('',#197);
#100=PLANE('',#199);
#101=FACE_OUTER_BOUND('',#131,.T.);
#102=FACE_OUTER_BOUND('',#140,.T.);
#103=ADVANCED_FACE('',(#115,#116),#112,.T.);
#104=ADVANCED_FACE('',(#101),#97,.T.);
#105=ADVANCED_FACE('',(#117,#118),#95,.T.);
#106=ADVANCED_FACE('',(#119,#120),#113,.T.);
#107=ADVANCED_FACE('',(#121,#122),#98,.F.);
#108=ADVANCED_FACE('',(#123,#124),#99,.T.);
#109=ADVANCED_FACE('',(#102),#100,.F.);
#110=ADVANCED_FACE('',(#125,#126),#96,.T.);
#111=ADVANCED_FACE('',(#127,#128),#114,.T.);
#112=CYLINDRICAL_SURFACE('',#188,5.1);
#113=CYLINDRICAL_SURFACE('',#194,4.6);
#114=CYLINDRICAL_SURFACE('',#202,5.1);
#115=FACE_BOUND('',#129,.T.);
#116=FACE_BOUND('',#130,.T.);
#117=FACE_BOUND('',#132,.T.);
#118=FACE_BOUND('',#133,.T.);
#119=FACE_BOUND('',#134,.T.);
#120=FACE_BOUND('',#135,.T.);
#121=FACE_BOUND('',#136,.T.);
#122=FACE_BOUND('',#137,.T.);
#123=FACE_BOUND('',#138,.T.);
#124=FACE_BOUND('',#139,.T.);
#125=FACE_BOUND('',#141,.T.);
#126=FACE_BOUND('',#142,.T.);
#127=FACE_BOUND('',#143,.T.);
#128=FACE_BOUND('',#144,.T.);
#129=EDGE_LOOP('',(#145));
#130=EDGE_LOOP('',(#146));
#131=EDGE_LOOP('',(#147));
#132=EDGE_LOOP('',(#148));
#133=EDGE_LOOP('',(#149));
#134=EDGE_LOOP('',(#150));
#135=EDGE_LOOP('',(#151));
#136=EDGE_LOOP('',(#152));
#137=EDGE_LOOP('',(#153));
#138=EDGE_LOOP('',(#154));
#139=EDGE_LOOP('',(#155));
#140=EDGE_LOOP('',(#156));
#141=EDGE_LOOP('',(#157));
#142=EDGE_LOOP('',(#158));
#143=EDGE_LOOP('',(#159));
#144=EDGE_LOOP('',(#160));
#145=ORIENTED_EDGE('',*,*,#169,.T.);
#146=ORIENTED_EDGE('',*,*,#170,.T.);
#147=ORIENTED_EDGE('',*,*,#171,.T.);
#148=ORIENTED_EDGE('',*,*,#170,.F.);
#149=ORIENTED_EDGE('',*,*,#171,.F.);
#150=ORIENTED_EDGE('',*,*,#172,.F.);
#151=ORIENTED_EDGE('',*,*,#173,.T.);
#152=ORIENTED_EDGE('',*,*,#169,.F.);
#153=ORIENTED_EDGE('',*,*,#172,.T.);
#154=ORIENTED_EDGE('',*,*,#174,.T.);
#155=ORIENTED_EDGE('',*,*,#173,.F.);
#156=ORIENTED_EDGE('',*,*,#175,.T.);
#157=ORIENTED_EDGE('',*,*,#175,.F.);
#158=ORIENTED_EDGE('',*,*,#176,.F.);
#159=ORIENTED_EDGE('',*,*,#176,.T.);
#160=ORIENTED_EDGE('',*,*,#174,.F.);
#161=VERTEX_POINT('',#241);
#162=VERTEX_POINT('',#243);
#163=VERTEX_POINT('',#246);
#164=VERTEX_POINT('',#250);
#165=VERTEX_POINT('',#252);
#166=VERTEX_POINT('',#256);
#167=VERTEX_POINT('',#259);
#168=VERTEX_POINT('',#262);
#169=EDGE_CURVE('',#161,#161,#177,.T.);
#170=EDGE_CURVE('',#162,#162,#178,.T.);
#171=EDGE_CURVE('',#163,#163,#179,.T.);
#172=EDGE_CURVE('',#164,#164,#180,.T.);
#173=EDGE_CURVE('',#165,#165,#181,.T.);
#174=EDGE_CURVE('',#166,#166,#182,.T.);
#175=EDGE_CURVE('',#167,#167,#183,.T.);
#176=EDGE_CURVE('',#168,#168,#184,.T.);
#177=CIRCLE('',#186,5.1);
#178=CIRCLE('',#187,5.1);
#179=CIRCLE('',#189,4.6);
#180=CIRCLE('',#192,4.6);
#181=CIRCLE('',#193,4.6);
#182=CIRCLE('',#196,5.1);
#183=CIRCLE('',#198,4.6);
#184=CIRCLE('',#200,5.1);
#185=AXIS2_PLACEMENT_3D('',#239,#203,#204);
#186=AXIS2_PLACEMENT_3D('',#240,#205,#206);
#187=AXIS2_PLACEMENT_3D('',#242,#207,#208);
#188=AXIS2_PLACEMENT_3D('',#244,#209,#210);
#189=AXIS2_PLACEMENT_3D('',#245,#211,#212);
#190=AXIS2_PLACEMENT_3D('',#247,#213,#214);
#191=AXIS2_PLACEMENT_3D('',#248,#215,#216);
#192=AXIS2_PLACEMENT_3D('',#249,#217,#218);
#193=AXIS2_PLACEMENT_3D('',#251,#219,#220);
#194=AXIS2_PLACEMENT_3D('',#253,#221,#222);
#195=AXIS2_PLACEMENT_3D('',#254,#223,#224);
#196=AXIS2_PLACEMENT_3D('',#255,#225,#226);
#197=AXIS2_PLACEMENT_3D('',#257,#227,#228);
#198=AXIS2_PLACEMENT_3D('',#258,#229,#230);
#199=AXIS2_PLACEMENT_3D('',#260,#231,#232);
#200=AXIS2_PLACEMENT_3D('',#261,#233,#234);
#201=AXIS2_PLACEMENT_3D('',#263,#235,#236);
#202=AXIS2_PLACEMENT_3D('',#264,#237,#238);
#203=DIRECTION('',(0.,0.,1.));
#204=DIRECTION('',(1.,0.,0.));
#205=DIRECTION('',(0.,0.,1.));
#206=DIRECTION('',(1.,0.,0.));
#207=DIRECTION('',(0.,0.,-1.));
#208=DIRECTION('',(1.,0.,0.));
#209=DIRECTION('',(0.,0.,-1.));
#210=DIRECTION('',(-1.,0.,0.));
#211=DIRECTION('',(0.,0.,1.));
#212=DIRECTION('',(1.,0.,0.));
#213=DIRECTION('',(0.,0.,1.));
#214=DIRECTION('',(1.,0.,0.));
#215=DIRECTION('',(0.,0.,1.));
#216=DIRECTION('',(1.,0.,0.));
#217=DIRECTION('',(0.,0.,1.));
#218=DIRECTION('',(1.,1.22464679914735E-16,0.));
#219=DIRECTION('',(0.,0.,1.));
#220=DIRECTION('',(1.,1.22464679914735E-16,0.));
#221=DIRECTION('',(0.,0.,-1.));
#222=DIRECTION('',(-1.,0.,0.));
#223=DIRECTION('',(0.,0.,1.));
#224=DIRECTION('',(1.,0.,0.));
#225=DIRECTION('',(0.,0.,1.));
#226=DIRECTION('',(1.,0.,0.));
#227=DIRECTION('',(0.,0.,1.));
#228=DIRECTION('',(1.,0.,0.));
#229=DIRECTION('',(0.,0.,-1.));
#230=DIRECTION('',(1.,0.,0.));
#231=DIRECTION('',(0.,0.,1.));
#232=DIRECTION('',(1.,0.,0.));
#233=DIRECTION('',(0.,0.,1.));
#234=DIRECTION('',(1.,0.,0.));
#235=DIRECTION('',(0.,0.,1.));
#236=DIRECTION('',(1.,0.,0.));
#237=DIRECTION('',(0.,0.,-1.));
#238=DIRECTION('',(-1.,0.,0.));
#239=CARTESIAN_POINT('',(0.,0.,0.));
#240=CARTESIAN_POINT('',(0.,0.,28.6));
#241=CARTESIAN_POINT('',(5.1,0.,28.6));
#242=CARTESIAN_POINT('',(0.,0.,37.5));
#243=CARTESIAN_POINT('',(5.1,0.,37.5));
#244=CARTESIAN_POINT('',(0.,0.,38.));
#245=CARTESIAN_POINT('',(0.,0.,38.));
#246=CARTESIAN_POINT('',(4.6,0.,38.));
#247=CARTESIAN_POINT('',(0.,0.,38.));
#248=CARTESIAN_POINT('',(0.,0.,37.5));
#249=CARTESIAN_POINT('',(0.,0.,28.6));
#250=CARTESIAN_POINT('',(4.6,5.63337527607782E-16,28.6));
#251=CARTESIAN_POINT('',(0.,0.,9.4));
#252=CARTESIAN_POINT('',(4.6,5.63337527607782E-16,9.4));
#253=CARTESIAN_POINT('',(0.,0.,28.6));
#254=CARTESIAN_POINT('',(0.,0.,28.6));
#255=CARTESIAN_POINT('',(0.,0.,9.4));
#256=CARTESIAN_POINT('',(5.1,0.,9.4));
#257=CARTESIAN_POINT('',(0.,0.,9.4));
#258=CARTESIAN_POINT('',(0.,0.,0.));
#259=CARTESIAN_POINT('',(4.6,0.,0.));
#260=CARTESIAN_POINT('',(0.,0.,0.));
#261=CARTESIAN_POINT('',(0.,0.,0.5));
#262=CARTESIAN_POINT('',(5.1,0.,0.5));
#263=CARTESIAN_POINT('',(0.,0.,0.5));
#264=CARTESIAN_POINT('',(0.,0.,38.));
#265=(
GEOMETRIC_REPRESENTATION_CONTEXT(3)
GLOBAL_UNCERTAINTY_ASSIGNED_CONTEXT((#266))
GLOBAL_UNIT_ASSIGNED_CONTEXT((#272,#268,#267))
REPRESENTATION_CONTEXT('\X2\719482AF\X0\','TOP_LEVEL_ASSEMBLY_PART')
);
#266=UNCERTAINTY_MEASURE_WITH_UNIT(LENGTH_MEASURE(2.E-5),#272,
'DISTANCE_ACCURACY_VALUE','Maximum Tolerance applied to model');
#267=(
NAMED_UNIT(*)
SI_UNIT($,.STERADIAN.)
SOLID_ANGLE_UNIT()
);
#268=(
CONVERSION_BASED_UNIT('DEGREE',#270)
NAMED_UNIT(#269)
PLANE_ANGLE_UNIT()
);
#269=DIMENSIONAL_EXPONENTS(0.,0.,0.,0.,0.,0.,0.);
#270=PLANE_ANGLE_MEASURE_WITH_UNIT(PLANE_ANGLE_MEASURE(0.0174532925),#271);
#271=(
NAMED_UNIT(*)
PLANE_ANGLE_UNIT()
SI_UNIT($,.RADIAN.)
);
#272=(
LENGTH_UNIT()
NAMED_UNIT(*)
SI_UNIT(.MILLI.,.METRE.)
);
ENDSEC;
END-ISO-10303-21;
